Skip to content

Lithium Tab: Kurt Cobain Lives On

August 6, 2011

Lithium – Nirvana
Nevermind Album - 1991
Record Label: Sub Pop

Tuning: Eb Bb Gb Db Ab Eb

Intro (Clean):

e|--------------------------------------------------------------------|
B|--------------------------------------------------------------------|
G|--------------------------------------------------------------------|
D|-----------------6x-----2------5--5—5/7--7-7---4--4-4/7--7-7--------|
A|-2--x-----6x--4------0-----0---3--3—3/5--5-5---2--2-2/5--5-5--------|
E|-0--x--4------------------------------------------------------------|
 PM. . . . . . . . . . . . . . . . . . . . . . . . . . . . . .        |
G|--------------------------------------------------------------------|
D|-----------------6--------------------------------------------------|
A|----------6---4------0--0—-0h3-3—-3-3/5—-5-5---2--2-2/5--5-5--------|
E|-0-----4------------------------------------------------------------|

Verse 1 (Clean):

  I’m so happy,    cuz today I found my friends, they’re in my head
e|--------------------------------------------------------------------|
B|--------------------------------------------------------------------|
G|--------------------------------------------------------------------|
D|-----------------6x-----2------5--5—5/7--7-7---4--4-4/7--7-7--------|
A|-2--x-----6x--4------0-----0---3--3—3/5--5-5---2--2-2/5--5-5--------|
E|-0--x--4------------------------------------------------------------|
 PM. . . . . . . . . . . . . . . . . . . . . . . . . . . . . .        |
G|--------------------------------------------------------------------|
D|-----------------6--------------------------------------------------|
A|----------6---4------0--0—-0h3-3—-3-3/5—-5-5---2--2-2/5--5-5--------|
E|-0-----4------------------------------------------------------------|

  I’m so ugly,    that’s okay cuz so are you,   broke our mirrors
e|--------------------------------------------------------------------|
B|--------------------------------------------------------------------|
G|--------------------------------------------------------------------|
D|-----------------6x-----2------5--5—5/7--7-7---4--4-4/7--7-7--------|
A|-2--x-----6x--4------0-----0---3--3—3/5--5-5---2--2-2/5--5-5--------|
E|-0--x--4------------------------------------------------------------|
 PM. . . . . . . . . . . . . . . . . . . . . . . . . . . . . .        |
G|--------------------------------------------------------------------|
D|-----------------6--------------------------------------------------|
A|----------6---4------0--0—-0h3-3—-3-3/5—-5-5---2--2-2/5--5-5--------|
E|-0-----4------------------------------------------------------------|

  Sunday morning,  is everyday for all I care,   I’m not scared
e|--------------------------------------------------------------------|
B|--------------------------------------------------------------------|
G|--------------------------------------------------------------------|
D|-----------------6x-----2------5--5—5/7--7-7---4--4-4/7--7-7--------|
A|-2--x-----6x--4------0-----0---3--3—3/5--5-5---2--2-2/5--5-5--------|
E|-0--x--4------------------------------------------------------------|
 PM. . . . . . . . . . . . . . . . . . . . . . . . . . . . . .        |
G|--------------------------------------------------------------------|
D|-----------------6--------------------------------------------------|
A|----------6---4------0--0—-0h3-3—-3-3/5—-5-5---2--2-2/5--5-5--------|
E|-0-----4------------------------------------------------------------|

   Light my candles,  in a daze cuz I found god
e|--------------------------------------------------------------------|
B|--------------------------------------------------------------------|
G|--------------------------------------------------------------------|
D|-----------------6x-----2------5--5—5/7--7-7---4--4-4/7--7-7--------|
A|-2--x-----6x--4------0-----0---3--3—3/5--5-5---2--2-2/5--5-5--------|
E|-0--x--4------------------------------------------------------------|
 PM. . . . . . . . . . . . . . . . . . . . . . . . . . . . . .        |
G|--------------------------------------------------------------------|
D|-----------------6--------------------------------------------------|
A|----------6---4------0--0—-0h3-3—-3-3/5—-5-5---2--2-2/5--5-5--------|
E|-0-----4------------------------------------------------------------|

Pre Chorus (Heavy Distortion):

   Yea……………………………………………………………  Yea……………………………………………………………………
e|--------------------------------------------------------------------|
B|--------------------------------------------------------------------|
G|--------------------------------------------------------------------|
D|---------------6-—6x--2—-2x--5--5-5/7--7-7---4--4-4/7--7-7----------|
A|-2—-2x--6—-6x—-4--4x--0--0x--3--3-3/5--5-5---2--2-2/5--5-5----------|
E|-0—-0x--4—-4x-------------------------------------------------------|
                                                                      |
G|--------------------------------------------------------------------|
D|--------------------------------------------------------------------|
A|---------------4--4---0--0---3--3-3/5--5-5---2--2-2/5--5-5----------|
E|-0--0---4--4--------------------------------------------------------|

   Yea……………………………………………………………  Yea……………………………………………………………………
e|--------------------------------------------------------------------|
B|--------------------------------------------------------------------|
G|--------------------------------------------------------------------|
D|---------------6-—6x--2—-2x--5--5-5/7--7-7---4--4-4/7--7-7----------|
A|-2—-2x--6—-6x—-4--4x--0--0x--3--3-3/5--5-5---2--2-2/5--5-5----------|
E|-0—-0x--4—-4x-------------------------------------------------------|
                                                                      |
G|--------------------------------------------------------------------|
D|--------------------------------------------------------------------|
A|---------------4--4---0--0---3--3-3/5--5-5---2--2-2/5--5-5----------|
E|-0--0---4--4--------------------------------------------------------|

   Yea……………………………………………………………  Yea……………………………………………………………………
e|--------------------------------------------------------------------|
B|--------------------------------------------------------------------|
G|--------------------------------------------------------------------|
D|---------------6-—6x--2—-2x--5--5-5/7--7-7---4--4-4/7--7-7----------|
A|-2—-2x--6—-6x—-4--4x--0--0x--3--3-3/5--5-5---2--2-2/5--5-5----------|
E|-0—-0x--4—-4x-------------------------------------------------------|
                                                                      |
G|--------------------------------------------------------------------|
D|--------------------------------------------------------------------|
A|---------------4--4---0--0---3--3-3/5--5-5---2--2-2/5--5-5----------|
E|-0--0---4--4--------------------------------------------------------|

   Yea……………………………………………………………  Yea……………………………………………………………………Yeah!
e|--------------------------------------------------------------------|
B|--------------------------------------------------------------------|
G|--------------------------------------------------------------------|
D|---------------6-—6x--2—-2x--5--5-5/7--7-7---4--4-4/7--7-7----------|
A|-2—-2x--6—-6x—-4--4x--0--0x--3--3-3/5--5-5---2--2-2/5--5-5----------|
E|-0—-0x--4—-4x-------------------------------------------------------|
                                                                      |
G|--------------------------------------------------------------------|
D|--------------------------------------------------------------------|
A|---------------4--4---0--0---3--3-3/5--5-5---2--2-2/5--5-5----------|
E|-0--0---4--4--------------------------------------------------------|

Verse 2 (Clean):

  I’m so lonely,   that’s okay I shaved my head, I’m not sad
e|--------------------------------------------------------------------|
B|--------------------------------------------------------------------|
G|--------------------------------------------------------------------|
D|-----------------6x-----2------5--5—5/7--7-7---4--4-4/7--7-7--------|
A|-2--x-----6x--4------0-----0---3--3—3/5--5-5---2--2-2/5--5-5--------|
E|-0--x--4------------------------------------------------------------|
 PM. . . . . . . . . . . . . . . . . . . . . . . . . . . . . .        |
G|--------------------------------------------------------------------|
D|-----------------6--------------------------------------------------|
A|----------6---4------0--0—-0h3-3—-3-3/5—-5-5---2--2-2/5--5-5--------|
E|-0-----4------------------------------------------------------------|

  And just maybe, I’m to plain for all I’ve heard, I’m not sure
e|--------------------------------------------------------------------|
B|--------------------------------------------------------------------|
G|--------------------------------------------------------------------|
D|-----------------6x-----2------5--5—5/7--7-7---4--4-4/7--7-7--------|
A|-2--x-----6x--4------0-----0---3--3—3/5--5-5---2--2-2/5--5-5--------|
E|-0--x--4------------------------------------------------------------|
 PM. . . . . . . . . . . . . . . . . . . . . . . . . . . . . .        |
G|--------------------------------------------------------------------|
D|-----------------6--------------------------------------------------|
A|----------6---4------0--0—-0h3-3—-3-3/5—-5-5---2--2-2/5--5-5--------|
E|-0-----4------------------------------------------------------------|

  I’m so excited,  I can’t wait to meet you there, I don’t care
e|--------------------------------------------------------------------|
B|--------------------------------------------------------------------|
G|--------------------------------------------------------------------|
D|-----------------6x-----2------5--5—5/7--7-7---4--4-4/7--7-7--------|
A|-2--x-----6x--4------0-----0---3--3—3/5--5-5---2--2-2/5--5-5--------|
E|-0--x--4------------------------------------------------------------|
 PM. . . . . . . . . . . . . . . . . . . . . . . . . . . . . .        |
G|--------------------------------------------------------------------|
D|-----------------6--------------------------------------------------|
A|----------6---4------0--0—-0h3-3—-3-3/5—-5-5---2--2-2/5--5-5--------|
E|-0-----4------------------------------------------------------------|

  I’m so horny,    that’s okay my will is good
e|--------------------------------------------------------------------|
B|--------------------------------------------------------------------|
G|--------------------------------------------------------------------|
D|-----------------6x-----2------5--5—5/7--7-7---4--4-4/7--7-7--------|
A|-2--x-----6x--4------0-----0---3--3—3/5--5-5---2--2-2/5--5-5--------|
E|-0--x--4------------------------------------------------------------|
 PM. . . . . . . . . . . . . . . . . . . . . . . . . . . . . .        |
G|--------------------------------------------------------------------|
D|-----------------6--------------------------------------------------|
A|----------6---4------0--0—-0h3-3—-3-3/5—-5-5---2--2-2/5--5-5--------|
E|-0-----4------------------------------------------------------------|

Pre Chorus (Heavy Distortion):

   Yea……………………………………………………………  Yea……………………………………………………………………
e|--------------------------------------------------------------------|
B|--------------------------------------------------------------------|
G|--------------------------------------------------------------------|
D|---------------6-—6x--2—-2x--5--5-5/7--7-7---4--4-4/7--7-7----------|
A|-2—-2x--6—-6x—-4--4x--0--0x--3--3-3/5--5-5---2--2-2/5--5-5----------|
E|-0—-0x--4—-4x-------------------------------------------------------|
                                                                      |
G|--------------------------------------------------------------------|
D|--------------------------------------------------------------------|
A|---------------4--4---0--0---3--3-3/5--5-5---2--2-2/5--5-5----------|
E|-0--0---4--4--------------------------------------------------------|

   Yea……………………………………………………………  Yea……………………………………………………………………
e|--------------------------------------------------------------------|
B|--------------------------------------------------------------------|
G|--------------------------------------------------------------------|
D|---------------6-—6x--2—-2x--5--5-5/7--7-7---4--4-4/7--7-7----------|
A|-2—-2x--6—-6x—-4--4x--0--0x--3--3-3/5--5-5---2--2-2/5--5-5----------|
E|-0—-0x--4—-4x-------------------------------------------------------|
                                                                      |
G|--------------------------------------------------------------------|
D|--------------------------------------------------------------------|
A|---------------4--4---0--0---3--3-3/5--5-5---2--2-2/5--5-5----------|
E|-0--0---4--4--------------------------------------------------------|

   Yea……………………………………………………………  Yea……………………………………………………………………
e|--------------------------------------------------------------------|
B|--------------------------------------------------------------------|
G|--------------------------------------------------------------------|
D|---------------6-—6x--2—-2x--5--5-5/7--7-7---4--4-4/7--7-7----------|
A|-2—-2x--6—-6x—-4--4x--0--0x--3--3-3/5--5-5---2--2-2/5--5-5----------|
E|-0—-0x--4—-4x-------------------------------------------------------|
                                                                      |
G|--------------------------------------------------------------------|
D|--------------------------------------------------------------------|
A|---------------4--4---0--0---3--3-3/5--5-5---2--2-2/5--5-5----------|
E|-0--0---4--4--------------------------------------------------------|

   Yea……………………………………………………………  Yea……………………………………………………………………Yeah!
e|--------------------------------------------------------------------|
B|--------------------------------------------------------------------|
G|--------------------------------------------------------------------|
D|---------------6-—6x--2—-2x--5--5-5/7--7-7---4--4-4/7--7-7----------|
A|-2—-2x--6—-6x—-4--4x--0--0x--3--3-3/5--5-5---2--2-2/5--5-5----------|
E|-0—-0x--4—-4x-------------------------------------------------------|
                                                                      |
G|--------------------------------------------------------------------|
D|--------------------------------------------------------------------|
A|---------------4--4---0--0---3--3-3/5--5-5---2--2-2/5--5-5----------|
E|-0--0---4--4--------------------------------------------------------|

Chorus (Heavy Distortion):

   I     like  it,  I’m not gonna crack
e|--------------------------------------------------------------------|
B|--------------------------------------------------------------------|
G|--------------------------------------------------------------------|
D|--------------------------------------------------------------------|
A|-7--7—-7/10--10---7--7—-7/10--10-10---------------------------------|
E|-5--5—-5/8---8----5--5—-5/8---8--8----------------------------------|
                                                                      |
G|--------------------------------------------------------------------|
D|--------------------------------------------------------------------|
A|--------------------------------------------------------------------|
E|-5--5—-5/8---8----5—-5-—5/8---8--8----------------------------------|

   I     miss  you, I’m not gonna crack
e|--------------------------------------------------------------------|
B|--------------------------------------------------------------------|
G|--------------------------------------------------------------------|
D|--------------------------------------------------------------------|
A|-7--7—-7/10--10---7--7—-7/10--10-10---------------------------------|
E|-5--5—-5/8---8----5--5—-5/8---8--8----------------------------------|
                                                                      |
G|--------------------------------------------------------------------|
D|--------------------------------------------------------------------|
A|--------------------------------------------------------------------|
E|-5--5—-5/8---8----5—-5-—5/8---8--8----------------------------------|

   I     love  you, I’m not gonna crack
e|--------------------------------------------------------------------|
B|--------------------------------------------------------------------|
G|--------------------------------------------------------------------|
D|--------------------------------------------------------------------|
A|-7--7—-7/10--10---7--7—-7/10--10-10---------------------------------|
E|-5--5—-5/8---8----5--5—-5/8---8--8----------------------------------|
                                                                      |
G|--------------------------------------------------------------------|
D|--------------------------------------------------------------------|
A|--------------------------------------------------------------------|
E|-5--5—-5/8---8----5—-5-—5/8---8--8----------------------------------|

   I    killed you, I’m not gonna crack
e|--------------------------------------------------------------------|
B|--------------------------------------------------------------------|
G|--------------------------------------------------------------------|
D|--------------------------------------------------------------------|
A|-7--7—-7/10--10---7--7—-7/10--10-10---------------------------------|
E|-5--5—-5/8---8----5--5—-5/8---8--8----------------------------------|
                                                                      |
G|--------------------------------------------------------------------|
D|--------------------------------------------------------------------|
A|--------------------------------------------------------------------|
E|-5--5—-5/8---8----5—-5-—5/8---8--8----------------------------------|

   I     like  it,  I’m not gonna crack
e|--------------------------------------------------------------------|
B|--------------------------------------------------------------------|
G|--------------------------------------------------------------------|
D|--------------------------------------------------------------------|
A|-7--7—-7/10--10---7--7—-7/10--10-10---------------------------------|
E|-5--5—-5/8---8----5--5—-5/8---8--8----------------------------------|
                                                                      |
G|--------------------------------------------------------------------|
D|--------------------------------------------------------------------|
A|--------------------------------------------------------------------|
E|-5--5—-5/8---8----5—-5-—5/8---8--8----------------------------------|

   I     miss  you, I’m not gonna crack
e|--------------------------------------------------------------------|
B|--------------------------------------------------------------------|
G|--------------------------------------------------------------------|
D|--------------------------------------------------------------------|
A|-7--7—-7/10--10---7--7—-7/10--10-10---------------------------------|
E|-5--5—-5/8---8----5--5—-5/8---8--8----------------------------------|
                                                                      |
G|--------------------------------------------------------------------|
D|--------------------------------------------------------------------|
A|--------------------------------------------------------------------|
E|-5--5—-5/8---8----5—-5-—5/8---8--8----------------------------------|

   I     love  you, I’m not gonna crack
e|--------------------------------------------------------------------|
B|--------------------------------------------------------------------|
G|--------------------------------------------------------------------|
D|--------------------------------------------------------------------|
A|-7--7—-7/10--10---7--7—-7/10--10-10---------------------------------|
E|-5--5—-5/8---8----5--5—-5/8---8--8----------------------------------|
                                                                      |
G|--------------------------------------------------------------------|
D|--------------------------------------------------------------------|
A|--------------------------------------------------------------------|
E|-5--5—-5/8---8----5—-5-—5/8---8--8----------------------------------|

   I    killed you, I’m not gonna  crack. . . . . . . . . . . . .
e|--------------------------------------------------------------------|
B|--------------------------------------------------------------------|
G|--------------------------------------------------------------------|
D|----------------------------------|PM. . . . . . . . . . . . . .|---|
A|-7--7—-7/10--10---7--7—-7/10--10--12-12-12-12-12-12-101010101010---2|
E|-5--5—-5/8---8----5--5—-5/8—--8---10-10-10-10-10-10-8-8-8-8-8-8-3b-0|
                                                                      |
G|--------------------------------------------------------------------|
D|--------------------------------------------------------------------|
A|--------------------------------------------------------------------|
E|-5--5—-5/8---8----5—-5-—5/8---8---10-10-10-10-10-10-8-8-8-8-8-8-3b-0|

Bass Solo:

G|--------------------------------------------------------------------|
D|-----------------6--------------------------------------------------|
A|----------6---4------0--0—-0h3-3—-3-3/5—-5-5---2--2-2/5--5-5--------|
E|-0-----4------------------------------------------------------------|

Verse 3 (Clean):

  I’m so happy,    cuz today I found my friends, they’re in my head
e|--------------------------------------------------------------------|
B|--------------------------------------------------------------------|
G|--------------------------------------------------------------------|
D|-----------------6x-----2------5--5—5/7--7-7---4--4-4/7--7-7--------|
A|-2--x-----6x--4------0-----0---3--3—3/5--5-5---2--2-2/5--5-5--------|
E|-0--x--4------------------------------------------------------------|
 PM. . . . . . . . . . . . . . . . . . . . . . . . . . . . . .        |
G|--------------------------------------------------------------------|
D|-----------------6--------------------------------------------------|
A|----------6---4------0--0—-0h3-3—-3-3/5—-5-5---2--2-2/5--5-5--------|
E|-0-----4------------------------------------------------------------|

  I’m so ugly,    that’s okay cuz so are you,   broke our mirrors
e|--------------------------------------------------------------------|
B|--------------------------------------------------------------------|
G|--------------------------------------------------------------------|
D|-----------------6x-----2------5--5—5/7--7-7---4--4-4/7--7-7--------|
A|-2--x-----6x--4------0-----0---3--3—3/5--5-5---2--2-2/5--5-5--------|
E|-0--x--4------------------------------------------------------------|
 PM. . . . . . . . . . . . . . . . . . . . . . . . . . . . . .        |
G|--------------------------------------------------------------------|
D|-----------------6--------------------------------------------------|
A|----------6---4------0--0—-0h3-3—-3-3/5—-5-5---2--2-2/5--5-5--------|
E|-0-----4------------------------------------------------------------|

  Sunday morning,  is everyday for all I care,   I’m not scared
e|--------------------------------------------------------------------|
B|--------------------------------------------------------------------|
G|--------------------------------------------------------------------|
D|-----------------6x-----2------5--5—5/7--7-7---4--4-4/7--7-7--------|
A|-2--x-----6x--4------0-----0---3--3—3/5--5-5---2--2-2/5--5-5--------|
E|-0--x--4------------------------------------------------------------|
 PM. . . . . . . . . . . . . . . . . . . . . . . . . . . . . .        |
G|--------------------------------------------------------------------|
D|-----------------6--------------------------------------------------|
A|----------6---4------0--0—-0h3-3—-3-3/5—-5-5---2--2-2/5--5-5--------|
E|-0-----4------------------------------------------------------------|

   Light my candles,  in a daze cuz I found god
e|--------------------------------------------------------------------|
B|--------------------------------------------------------------------|
G|--------------------------------------------------------------------|
D|-----------------6x-----2------5--5—5/7--7-7---4--4-4/7--7-7--------|
A|-2--x-----6x--4------0-----0---3--3—3/5--5-5---2--2-2/5--5-5--------|
E|-0--x--4------------------------------------------------------------|
 PM. . . . . . . . . . . . . . . . . . . . . . . . . . . . . .        |
G|--------------------------------------------------------------------|
D|-----------------6--------------------------------------------------|
A|----------6---4------0--0—-0h3-3—-3-3/5—-5-5---2--2-2/5--5-5--------|
E|-0-----4------------------------------------------------------------|

Pre Chorus (Heavy Distortion):

   Yea……………………………………………………………  Yea……………………………………………………………………
e|--------------------------------------------------------------------|
B|--------------------------------------------------------------------|
G|--------------------------------------------------------------------|
D|---------------6-—6x--2—-2x--5--5-5/7--7-7---4--4-4/7--7-7----------|
A|-2—-2x--6—-6x—-4--4x--0--0x--3--3-3/5--5-5---2--2-2/5--5-5----------|
E|-0—-0x--4—-4x-------------------------------------------------------|
                                                                      |
G|--------------------------------------------------------------------|
D|--------------------------------------------------------------------|
A|---------------4--4---0--0---3--3-3/5--5-5---2--2-2/5--5-5----------|
E|-0--0---4--4--------------------------------------------------------|

   Yea……………………………………………………………  Yea……………………………………………………………………
e|--------------------------------------------------------------------|
B|--------------------------------------------------------------------|
G|--------------------------------------------------------------------|
D|---------------6-—6x--2—-2x--5--5-5/7--7-7---4--4-4/7--7-7----------|
A|-2—-2x--6—-6x—-4--4x--0--0x--3--3-3/5--5-5---2--2-2/5--5-5----------|
E|-0—-0x--4—-4x-------------------------------------------------------|
                                                                      |
G|--------------------------------------------------------------------|
D|--------------------------------------------------------------------|
A|---------------4--4---0--0---3--3-3/5--5-5---2--2-2/5--5-5----------|
E|-0--0---4--4--------------------------------------------------------|

   Yea……………………………………………………………  Yea……………………………………………………………………
e|--------------------------------------------------------------------|
B|--------------------------------------------------------------------|
G|--------------------------------------------------------------------|
D|---------------6-—6x--2—-2x--5--5-5/7--7-7---4--4-4/7--7-7----------|
A|-2—-2x--6—-6x—-4--4x--0--0x--3--3-3/5--5-5---2--2-2/5--5-5----------|
E|-0—-0x--4—-4x-------------------------------------------------------|
                                                                      |
G|--------------------------------------------------------------------|
D|--------------------------------------------------------------------|
A|---------------4--4---0--0---3--3-3/5--5-5---2--2-2/5--5-5----------|
E|-0--0---4--4--------------------------------------------------------|

   Yea……………………………………………………………  Yea……………………………………………………………………Yeah!
e|--------------------------------------------------------------------|
B|--------------------------------------------------------------------|
G|--------------------------------------------------------------------|
D|---------------6-—6x--2—-2x--5--5-5/7--7-7---4--4-4/7--7-7----------|
A|-2—-2x--6—-6x—-4--4x--0--0x--3--3-3/5--5-5---2--2-2/5--5-5----------|
E|-0—-0x--4—-4x-------------------------------------------------------|
                                                                      |
G|--------------------------------------------------------------------|
D|--------------------------------------------------------------------|
A|---------------4--4---0--0---3--3-3/5--5-5---2--2-2/5--5-5----------|
E|-0--0---4--4--------------------------------------------------------|

Chorus (Heavy Distortion):

   I     like  it,  I’m not gonna crack
e|--------------------------------------------------------------------|
B|--------------------------------------------------------------------|
G|--------------------------------------------------------------------|
D|--------------------------------------------------------------------|
A|-7--7—-7/10--10---7--7—-7/10--10-10---------------------------------|
E|-5--5—-5/8---8----5--5—-5/8---8--8----------------------------------|
                                                                      |
G|--------------------------------------------------------------------|
D|--------------------------------------------------------------------|
A|--------------------------------------------------------------------|
E|-5--5—-5/8---8----5—-5-—5/8---8--8----------------------------------|

   I     miss  you, I’m not gonna crack
e|--------------------------------------------------------------------|
B|--------------------------------------------------------------------|
G|--------------------------------------------------------------------|
D|--------------------------------------------------------------------|
A|-7--7—-7/10--10---7--7—-7/10--10-10---------------------------------|
E|-5--5—-5/8---8----5--5—-5/8---8--8----------------------------------|
                                                                      |
G|--------------------------------------------------------------------|
D|--------------------------------------------------------------------|
A|--------------------------------------------------------------------|
E|-5--5—-5/8---8----5—-5-—5/8---8--8----------------------------------|

   I     love  you, I’m not gonna crack
e|--------------------------------------------------------------------|
B|--------------------------------------------------------------------|
G|--------------------------------------------------------------------|
D|--------------------------------------------------------------------|
A|-7--7—-7/10--10---7--7—-7/10--10-10---------------------------------|
E|-5--5—-5/8---8----5--5—-5/8---8--8----------------------------------|
                                                                      |
G|--------------------------------------------------------------------|
D|--------------------------------------------------------------------|
A|--------------------------------------------------------------------|
E|-5--5—-5/8---8----5—-5-—5/8---8--8----------------------------------|

   I    killed you, I’m not gonna crack
e|--------------------------------------------------------------------|
B|--------------------------------------------------------------------|
G|--------------------------------------------------------------------|
D|--------------------------------------------------------------------|
A|-7--7—-7/10--10---7--7—-7/10--10-10---------------------------------|
E|-5--5—-5/8---8----5--5—-5/8---8--8----------------------------------|
                                                                      |
G|--------------------------------------------------------------------|
D|--------------------------------------------------------------------|
A|--------------------------------------------------------------------|
E|-5--5—-5/8---8----5—-5-—5/8---8--8----------------------------------|

   I     like  it,  I’m not gonna crack
e|--------------------------------------------------------------------|
B|--------------------------------------------------------------------|
G|--------------------------------------------------------------------|
D|--------------------------------------------------------------------|
A|-7--7—-7/10--10---7--7—-7/10--10-10---------------------------------|
E|-5--5—-5/8---8----5--5—-5/8---8--8----------------------------------|
                                                                      |
G|--------------------------------------------------------------------|
D|--------------------------------------------------------------------|
A|--------------------------------------------------------------------|
E|-5--5—-5/8---8----5—-5-—5/8---8--8----------------------------------|

   I     miss  you, I’m not gonna crack
e|--------------------------------------------------------------------|
B|--------------------------------------------------------------------|
G|--------------------------------------------------------------------|
D|--------------------------------------------------------------------|
A|-7--7—-7/10--10---7--7—-7/10--10-10---------------------------------|
E|-5--5—-5/8---8----5--5—-5/8---8--8----------------------------------|
                                                                      |
G|--------------------------------------------------------------------|
D|--------------------------------------------------------------------|
A|--------------------------------------------------------------------|
E|-5--5—-5/8---8----5—-5-—5/8---8--8----------------------------------|

   I     love  you, I’m not gonna crack
e|--------------------------------------------------------------------|
B|--------------------------------------------------------------------|
G|--------------------------------------------------------------------|
D|--------------------------------------------------------------------|
A|-7--7—-7/10--10---7--7—-7/10--10-10---------------------------------|
E|-5--5—-5/8---8----5--5—-5/8---8--8----------------------------------|
                                                                      |
G|--------------------------------------------------------------------|
D|--------------------------------------------------------------------|
A|--------------------------------------------------------------------|
E|-5--5—-5/8---8----5—-5-—5/8---8--8----------------------------------|

   I    killed you, I’m not gonna  crack. . . . . . . . . . . . .
e|--------------------------------------------------------------------|
B|--------------------------------------------------------------------|
G|--------------------------------------------------------------------|
D|----------------------------------|PM. . . . . . . . . . . . . .|---|
A|-7--7—-7/10--10---7--7—-7/10--10--12-12-12-12-12-12-101010101010---2|
E|-5--5—-5/8---8----5--5—-5/8—--8---10-10-10-10-10-10-8-8-8-8-8-8-3b-0|
                                                                      |
G|--------------------------------------------------------------------|
D|--------------------------------------------------------------------|
A|--------------------------------------------------------------------|
E|-5--5—-5/8---8----5—-5-—5/8---8---10-10-10-10-10-10-8-8-8-8-8-8-3b-0|

Tablature Notation
************************************
| /    slide
| x    Mute note
| PM.. Palm Mute
| b    Bend
************************************

There is a bass solo that separates the first chorus and the third verse, but since I’m not that great of a bass player, I just put the same thing that the bass does for the verse. It sounds good enough to me. This was my first tab, so I hope it is satisfactory. Sorry if the lyrics don’t line up perfectly.

Advertisements

From → Music

Leave a Comment

Leave a Reply

Fill in your details below or click an icon to log in:

WordPress.com Logo

You are commenting using your WordPress.com account. Log Out / Change )

Twitter picture

You are commenting using your Twitter account. Log Out / Change )

Facebook photo

You are commenting using your Facebook account. Log Out / Change )

Google+ photo

You are commenting using your Google+ account. Log Out / Change )

Connecting to %s

%d bloggers like this: